Nice`N Sleazy

ARTIST: THE STRANGLERS
SONG: NICE`N SLEAZY
ALBUM: BLACK AND WHITE
BASSIST: JEAN JACQUES BURNEL
TAB BY: [email protected]

R = REST
S = SLIDE
H = HAMMER ON
P = PULL OFF
* = CUT OFF NOTE AFTER PLAYING

BASS COMES IN AFTER DRUM & GUITAR INTRO


			( A )
G|---------------------------------|---------------------------------|
D|---9--7--------------------------|---------------------------------|
A|------------9--7-----------------|---------------------------------|
E|--------------------10--7--------|-5--7-R--------------------------|

REPEAT A  ANOTHER 2 TIMES


			(B)
G|---------------------------------|---------------------------------|
D|---9--7--------------------------|---------------------------------|
A|------------9--7-----------------|---------------------------------|
E|--------------------10--7--------|-5--7-R---------------------7----|


			( C )
G|----------------------------------|--------------------------------|
D|----------------------------------|--------------------------------|
A|---------------7------------------|--9-----------------------------|
E|---10----7-----------7------------|-----7*-7-S---------------0-----|


			( D )
G|----------------------------------|---------------------------------|
D|----------------------------------|---------------------------------|
A|----------------------------------|---------------------------------|
E|----------------------------------|------------------------------7--|

	
			( E )
G|----------------------------------|---------------------------------|
D|----------------------------------|---------------------------------|
A|---------------7------------------|--9------------------------------|
E|---10----7-----------7------------|-----7*-7-S-----------------0----|

	
			( F )
G|----------------------------------|---------------------------------|
D|----------------------------------|---------------------------------|
A|----------------------------------|---------------------------------|
E|----------------------------------|------------------------------7--|


			( G )
G|----------------------------------|---------------------------------|
D|----------------------------------|---------------------------------|
A|---------------7------------------|--9------------------------------|
E|---10----7-----------7------------|-------7*-7*-------------7-------|


REPEAT  G  ANOTHER 3 TIMES

			( H )
G|----------------------------------|---------------------------------|
D|----------------------------------|---------------------------------|
A|----------7------10---------------|-----------------4---------------|
E|---10------------------7----------|--5------5-------------5---------|



			( I )
G|----------------------------------|---------------------------------|
D|----------------------------------|---------------------------------|
A|----5-------------7---------------|------------------4--------------|
E|------------5------------5--------|-----5-----5------------5--------|

	
	
			( J )	
G|----------------------------------|---------------------------------|
D|----------------------------------|---------------------------------|
A|----5-----------------7-----------|-----------------7---------------|
E|-----------5-----------------7----|---10-----7-----------7----------|


		
			( K )
G|----------------------------------|---------------------------------|
D|----------------------------------|---------------------------------|
A|---9------------------------------|----------------7----------------|
E|--------7*--7*------------7-------|---10----7-----------7-----------|

	

			(  L )
G|----------------------------------|---------------------------------|
D|----------------------------------|---------------------------------|
A|---9------------------------------|------------------9--------------|
E|----------7*--7*------------7-----|----10-----7-----------7---------|

	

			( M )	
G|----------------------------------|---------------------------------|
D|----------------------------------|---------------------------------|
A|-----------------4----------------|----5------------7---------------|
E|----5-----5------------5----------|-----------5-------------5-------|



			( N )
G|----------------------------------|---------------------------------|
D|----------------------------------|---------------------------------|
A|----------------------------------|-----5----4----5-----------------|
E|---3-----3------3-----3-----------|-----------------------3---------|

	

			( O )
G|----------------------------------|---------------------------------|
D|----------------------------------|---------------------------------|
A|----------------------------------|---------------------------------|
E|----2-----------------------------|-----7-----5-----3-----2---------|
-
			

REPEAT C

REST 2 BARS

REPEAT A  4  TIMES

			( P )
G|----------------------------------|---------------------------------|
D|----------------------------------|---------------------------------|
A|----------------------------------|---------------------------------|
E|---5-----5-----5------5-----------|-----5-----5-----5-----5---------|



			( Q  )
G|----------------------------------|---------------------------------|
D|----------------------------------|---------------------------------|
A|----------------------------------|------7------------7-------------|
E|---5-----5------5-------5---------|------------5-------------5------|

	

			( R )
G|----------------------------------|---------------------------------|
D|----------------------------------|---------------------------------|
A|-----7------------7---------------|---------------------------------|
E|------------5------------5--------|---7-------------------10--------|

		

			( S )
G|----------------------------------|--------10--9--7-----------------|
D|------------7---9----7----9-R-----|--------------------9-7-9--------|
A|--7----9--------------------------|---------------------------------|
E|----------------------------------|---------------------------------|



			( T )
G|----------------------------------|---------------------------------|
D|---7------------------------------|---------------------------------|
A|-------9--7-9---7-----------------|---------------------------------|
E|-----------------------10S--7-----|---5-----5-----5-----5-----------|


REPEAT  P

			( U )
G|----------------------------------|---------------------------------|
D|----------------------------------|---------------------------------|
A|----7-----------7-----------------|----7------------7---------------|
E|----------5------------5----------|-----------5------------5--------|



			( V )
G|----------------------------------|---------------------------------|
D|----------------------------------|----------7--9--7-9 P--7---------|
A|----------------------------------|---7--9--------------------------|
E|---7*------------------10-*-------|---------------------------------|



			( W )
G|----------------------------------|---------------------------------|
D|----------------------------------|---------------------------------|
A|-------------------------4*-------|--5--7--5--7--5--7---------------|
E|-----5*---------------------------|--------------------------5------|


			
			( X )
G|----------------------------------|---------------------------------|
D|----------------------------------|---------------------------------|
A|----------------------------------|--5--4--5--4--5------------------|
E|------3*-----------------3*-------|------------------------3--------|

REPEAT O

REPEAT  G  8 TIMES ( KEYBOARD BRIDGE)

REPEAT  A 4 TIMES

REPEAT  P, Q, R, S, T , P, U, V, W, X, O

REPEAT  G 4 TIMES

REPEAT  H, I, J, K, L, M ,N , O


			( Y)
G|----------------------------------|---------------------------------|
D|----------------------------------|---------------------------------|
A|-----------------7----------------|---------------------------------|
E|---10-----7-----------7-----------|----7-----5-----3-----2----------|


REPEAT Y  ANOTHER 2  TIMES


			( Z )
G|----------------------------------|---------------------------------|
D|----------------------------------|---------------------------------|
A|----------------------------------|---------------------------------|
E|---7----HOLD----------------------|---------------------------------|




BACK TO MENU