It's A Small World


 IT'S A SMALL WORLD

 ARTIST: THE STRANGLERS
 ALBUM: FELINE
 BASSIST: JEAN JACQUES BURNEL
 TAB BY [email protected]



 
                                   (A)
G|----------------------------------|----------------------------------|
D|----------------------------------|----------------------------------|
A|----------------------------------|-----------------5--5--4--4--5--4-|
E|-5--5--5--5--5---0--0--0--0--0----|-3--3--3--3--3--------------------|


                                   (B)
G|----------------------------------|----------------------------------|
D|----------------------------------|----------------------------------|
A|----------------------------------|----------------------------------|
E|-5--5--5--5--5---0--0--0--0--0----|-3--3--3--3--3----3---------------|


                                   (C)
G|----------------------------------|----------------------------------|
D|----------------------------------|----------------------------------|
A|----------------------------------|-----------------5--5--4--4--5--4-|
E|-5--5--5--5--5---0--0--0--0--0----|-3--3--3--3--3--------------------|


                                   (D)
G|----------------------------------|----------------------------------|
D|----------------------------------|----------------------------------|
A|-----------------2--2--2--2--2----|-3--3--3--3--3--------------------|
E|-5--5--5--5--5--------------------|------------------0---------------|


                                   (E)
G|----------------------------------|----------------------------------|
D|----------------------------------|----------------------------------|
A|----------------------------------|-----------------5--5--4--4--5--4-|
E|-5--5--5--5--5---0--0--0--0--0----|-3--3--3--3--3--------------------|


                                   (F)
G|----------------------------------|----------------------------------|
D|----------------------------------|----------------------------------|
A|----------------------------------|----------------------------------|
E|-5--5--5--5--5---0--0--0--0--0----|-3--3--3--3--3----3---------------|


                                   (G)
G|----------------------------------|----------------------------------|
D|----------------------------------|----------------------------------|
A|----------------------------------|-----------------5--5--4--4--5--4-|
E|-5--5--5--5--5---0--0--0--0--0----|-3--3--3--3--3--------------------|


                                   (H)
G|----------------------------------|----------------------------------|
D|----------------------------------|----------------------------------|
A|-----------------2--2--2--2--2----|-3--3--3--3--3--------------------|
E|-5--5--5--5--5--------------------|------------------0---------------|


                                   (I)
G|----------------------------------|----------------------------------|
D|----------------------------------|----------------------------------|
A|-5--5--0--5--5----3--3--0--3--3---|-5--5--0--5--5----3--3--0--3--3---|
E|----------------------------------|----------------------------------|


                                   (J)
G|----------------------------------|----------------------------------|
D|----------------------------------|----------------------------------|
A|-5--5--0--5--5----3--3--0--3--3---|-5--5--0--5--5----7--7--0--7--7---|
E|----------------------------------|----------------------------------|


                                   (K)
G|----------------------------------|----------------------------------|
D|----------------------------------|----------------------------------|
A|----------------------------------|-----------------5--5--4--4--5--4-|
E|-5--5--5--5--5---0--0--0--0--0----|-3--3--3--3--3--------------------|


                                   (L)
G|----------------------------------|----------------------------------|
D|----------------------------------|----------------------------------|
A|----------------------------------|-----------------5--5--4--4--5--4-|
E|-5--5--5--5--5---0--0--0--0--0----|-3--3--3--3--3--------------------|


                                   (M)
G|----------------------------------|----------------------------------|
D|----------------------------------|----------------------------------|
A|----------------------------------|-----------------5--5--4--4--5--4-|
E|-5--5--5--5--5---0--0--0--0--0----|-3--3--3--3--3--------------------|
			

                                   (N)
G|----------------------------------|----------------------------------|
D|----------------------------------|----------------------------------|
A|----------------------------------|----------------------------------|
E|-5--5--5--5--5---0--0--0--0--0----|-3--3--3--3--3---3----------------|


                                   (O)
G|----------------------------------|----------------------------------|
D|----------------------------------|----------------------------------|
A|----------------------------------|-----------------5--5--4--4--5--4-|
E|-5--5--5--5--5---0--0--0--0--0----|-3--3--3--3--3--------------------|
			

                                   (P)
G|----------------------------------|----------------------------------|
D|----------------------------------|----------------------------------|
A|----------------------------------|----------------------------------|
E|-5--5--5--5--5---0--0--0--0--0----|-3--3--3--3--3---3----------------|


                                   (Q)
G|----------------------------------|----------------------------------|
D|----------------------------------|----------------------------------|
A|----------------------------------|-----------------5--5--4--4--5--4-|
E|-5--5--5--5--5---0--0--0--0--0----|-3--3--3--3--3--------------------|


                                   (R)
G|----------------------------------|----------------------------------|
D|----------------------------------|----------------------------------|
A|-----------------2--2--2--2--2----|-3--3--3--3--3--------------------|
E|-5--5--5--5--5--------------------|------------------0---------------|


                                   (S)
G|----------------------------------|----------------------------------|
D|----------------------------------|----------------------------------|
A|-5--5--0--5--5----3--3--0--3--3---|-5--5--0--5--5----3--3--0--3--3---|
E|----------------------------------|----------------------------------|


                                   (T)
G|----------------------------------|----------------------------------|
D|----------------------------------|----------------------------------|
A|-5--5--0--5--5----3--3--0--3--3---|-5--5--0--5--5----7--7--0--7--7---|
E|----------------------------------|----------------------------------|


                                   (U)
G|----------------------------------|--------------------------10---9--|
D|---------------------------3---2--|-----------------10---9-----------|
A|-8-----7-----------3---2----------|-8-----7--------------------------|
E|----------------------------------|----------------------------------|


                                   (V)
G|----------------------------------|----------------------------------|
D|-----------------------------3---2|----------------------------------|
A|-8---8--8--10--8--7---3---2-------|-8--8--0--8--8---10--10--0--10--10|
E|----------------------------------|----------------------------------|


                                   (W)
G|----------------------------------|----------------------------------|
D|----------------------------------|----------------------------------|
A|----------------------------------|-----------------5--5--4--4--5--4-|
E|-5--5--5--5--5---0--0--0--0--0----|-3--3--3--3--3--------------------|


                                   (X)
G|----------------------------------|----------------------------------|
D|----------------------------------|----------------------------------|
A|----------------------------------|-----------------5--5--4--4--5--4-|
E|-5--5--5--5--5---0--0--0--0--0----|-3--3--3--3--3--------------------|


                                   (Y)
G|----------------------------------|----------------------------------|
D|----------------------------------|----------------------------------|
A|----------------------------------|-----------------5--5--4--4--5--4-|
E|-5--5--5--5--5---0--0--0--0--0----|-3--3--3--3--3--------------------|


                                   (Z)
G|----------------------------------|----------------------------------|
D|----------------------------------|----------------------------------|
A|----------------------------------|----------------------------------|
E|-5--5--5--5--5---0--0--0--0--0----|-3--3--3--3--3---3----------------|


                                   (AA)
G|----------------------------------|----------------------------------|
D|----------------------------------|----------------------------------|
A|----------------------------------|-----------------5--5--4--4--5--4-|
E|-5--5--5--5--5---0--0--0--0--0----|-3--3--3--3--3--------------------|


                                   (AB)
G|----------------------------------|----------------------------------|
D|----------------------------------|----------------------------------|
A|-----------------2--2--2--2--2----|-3--3--3--3--3--------------------|
E|-5--5--5--5--5--------------------|------------------0---------------|


                                   (AC)
G|----------------------------------|----------------------------------|
D|----------------------------------|----------------------------------|
A|-5--5--0--5--5----3--3--0--3--3---|-5--5--0--5--5----3--3--0--3--3---|
E|----------------------------------|----------------------------------|


                                   (AD)
G|----------------------------------|----------------------------------|
D|----------------------------------|----------------------------------|
A|-5--5--0--5--5----3--3--0--3--3---|-5--5--0--5--5----7--7--0--7--7---|
E|----------------------------------|----------------------------------|


                                   (AE)
G|----------------------------------|----------------------------10--9-|
D|---------------------------3---2--|---------------------10--9--------|
A|-8-----7-----------3---2----------|-8---8--8--10--8--7---------------|
E|----------------------------------|----------------------------------|


                                   (AF)
G|----------------------------------|----------------------------------|
D|-----------------------------3---2|----------------------------------|
A|-8---8--8--10--8--7---3---2-------|-8--8--0--8--8---10--10--0--10--10|
E|----------------------------------|----------------------------------|


                                   (AG)
G|----------------------------------|----------------------------------|
D|----------------------------------|----------------------------------|
A|----------------------------------|-----------------5--5--4--4--5--4-|
E|-5--5--5--5--5---0--0--0--0--0----|-3--3--3--3--3--------------------|
			

                                   (AH)
G|----------------------------------|----------------------------------|
D|----------------------------------|----------------------------------|
A|----------------------------------|----------------------------------|
E|-5--5--5--5--5---0--0--0--0--0----|-3--3--3--3--3---3----------------|


                                   (AI)
G|----------------------------------|----------------------------------|
D|----------------------------------|----------------------------------|
A|----------------------------------|-----------------5--5--4--4--5--4-|
E|-5--5--5--5--5---0--0--0--0--0----|-3--3--3--3--3--------------------|


                                   (AJ)
G|----------------------------------|----------------------------------|
D|----------------------------------|----------------------------------|
A|-----------------2--2--2--2--2----|-3--3--3--3--3--------------------|
E|-5--5--5--5--5--------------------|------------------0---------------|


                                   (AK)
G|----------------------------------|----------------------------------|
D|----------------------------------|----------------------------------|
A|----------------------------------|-----------------5--5--4--4--5--4-|
E|-5--5--5--5--5---0--0--0--0--0----|-3--3--3--3--3--------------------|
			

                                   (AL)
G|----------------------------------|----------------------------------|
D|----------------------------------|----------------------------------|
A|----------------------------------|----------------------------------|
E|-5--5--5--5--5---0--0--0--0--0----|-3--3--3--3--3---3----------------|


                                   (AM)
G|----------------------------------|----------------------------------|
D|----------------------------------|----------------------------------|
A|----------------------------------|-----------------5--5--4--4--5--4-|
E|-5--5--5--5--5---0--0--0--0--0----|-3--3--3--3--3--------------------|


                                   (AN)
G|----------------------------------|----------------------------------|
D|----------------------------------|----------------------------------|
A|-----------------2--2--2--2--2----|-3--3--3--3--3--------------------|
E|-5--5--5--5--5--------------------|------------------0---------------|



                                   (AO)
G|----------------------------------|----------------------------------|
D|----------------------------------|----------------------------------|
A|----------------------------------|-----------------5--5--4--4--5--4-|
E|-5--5--5--5--5---0--0--0--0--0----|-3--3--3--3--3--------------------|


                                   (AP)
G|----------------------------------|----------------------------------|
D|----------------------------------|----------------------------------|
A|-----------------2--2--2--2--2----|-3--3--3--3--3--------------------|
E|-5--5--5--5--5--------------------|------------------0---------------|

 REPEAT AO AND AP UNTIL THE SONG FADES OUT 


BACK TO MENU