Still Life


ARTIST: THE STRANGLERS
SONG: STILL LIFE
ALBUM: ABOUT TIME
BASSIST: JEAN JACQUES BURNEL
TAB BY: [email protected]
	
R = REST

Bass comes in at 34 seconds

			(A)
G|----------------------------------|---------------------------------|
D|----------------------------------|---------------------------------|
A|----------------------------------|---------------------------------|
E|---5-------2---R---5---7---R------|--5------------------------------|

REPEAT A				

			(B)
G|----------------------------------|---------------------------------|
D|---7------------5-----------------|---------------------------------|
A|--------------------------7-------|---------------------------------|
E|----------------------------------|--5------------------------------|


			(C)
G|----------------------------------|---------------------------------|
D|---7------------5-----------------|---------------------------------|
A|--------------------------7-------|--5------------------------------|
E|----------------------------------|--------------8---R---8---7---7--|


REPEAT A, A, A, B, C, A, A


			(D)
G|----------------------------------|---------------------------------|
D|----------------------------------|---------------------------------|
A|--7-------------------------------|---------------------------------|
E|----------------------------------|---------------------------------|


			(E)
G|----------------------------------|---------------------------------|
D|----------------------------------|---------------------------------|
A|----------------------------------|---------------------------------|
E|--5-------------------------------|---------------------------------|


			(F)		
G|----------------------------------|---------------------------------|
D|----------------------------------|---------------------------------|
A|----------------------------------|---------------------------------|
E|--4-------------------------------|------------------------------4--|

REPEAT E

							
			(G)
G|----------------------------------|---------------------------------|
D|----------------------------------|---------------------------------|
A|----------------------------------|--5---5---5---5------------------|
E|--5---5---5---5---5---5---5---5---|------------------3---3---3---3--|


			(H)
G|----------------------------------|---------------------------------|
D|----------------------------------|---------------------------------|
A|----------------------------------|--5---5---5---5------------------|
E|--5---5---5---5---5---5---5---5---|------------------3---3---3---3--|


REPEAT G, G, G, G, G,


			(I)
G|----------------------------------|---------------------------------|
D|----------------------------------|---------------------------------|
A|----------------------------------|--5---5---5---5---7---7---7---7--|
E|--5---5---5---5---5---5---5---5---|---------------------------------|

REPEAT I

			(J)
G|----------------------------------|---------------------------------|
D|----------------------------------|---------------------------------|
A|----------------------------------|--5---5---5---5---5---5---5---5--|
E|--5---5---5---5---5---5---5---5---|---------------------------------|

	
			(K)
G|----------------------------------|---------------------------------|
D|----------------------------------|---------------------------------|
A|--3---3---3---3---3---3---3---3---|---------------------------------|
E|----------------------------------|--0---0---0---0---0---0---0---0--|

REPEAT I, I, J, K

			(L)			
G|----------------------------------|---------------------------------|
D|----------------------------------|---------------------------------|
A|----------------------------------|---------------------------------|
E|--7---7---7---7---7---7---7---7---|--8---8---8---5---5---5---5---5--|

			(M)
G|----------------------------------|---------------------------------|
D|----------------------------------|---------------------------------|
A|----------------------------------|---------------------------------|
E|--7---7---7---7---7---7---7---7---|--2---2---2---2---2---2---2---2--|


			(N)
G|----------------------------------|---------------------------------|
D|----------------------------------|---------------------------------|
A|----------------------------------|---------------------------------|
E|--2---2---2---2---3---R---3---R---|--5---5---5---5---5---5---5---5--|


			(O)
G|----------------------------------|---------------------------------|
D|----------------------------------|---------------------------------|
A|--5---5---5---5-------------------|---------------------------------|
E|------------------3---3---3---3---|--5---5---5---5---5---5---5---5--|


			(P)
G|----------------------------------|---------------------------------|
D|----------------------------------|---------------------------------|
A|--5---5---5---5-------------------|---------------------------------|
E|------------------0---0---0---0---|--5---5---5---5---5---5---5---5--|


			(Q)
G|----------------------------------|---------------------------------|
D|----------------------------------|---------------------------------|
A|--5---5---5---5---7---7---7---7---|---------------------------------|
E|----------------------------------|--5---5---5---5---5---5---5---5--|

REPEAT Q 			

			(R)
G|----------------------------------|---------------------------------|
D|----------------------------------|---------------------------------|
A|--5---5---5---5---5---5---5---5---|--3---3---3---3---3---3---3---3--|
E|----------------------------------|---------------------------------|


			(S)
G|----------------------------------|---------------------------------|
D|----------------------------------|---------------------------------|
A|----------------------------------|---------------------------------|
E|--0---0---0---0---0---0---0---0---|--5---5---5---5---5---5---5---5--|


REPEAT Q, Q, R

			(T)
G|----------------------------------|---------------------------------|
D|----------------------------------|---------------------------------|
A|----------------------------------|---------------------------------|
E|--0---0---0---0---0---0---4---3---|--7---7---7---7---7---7---7---7--|


			(U)
G|----------------------------------|---------------------------------|
D|----------------------------------|---------------------------------|
A|----------------------------------|---------------------------------|
E|--8---8---8---8---5---5---5---5---|--7---7---7---7---7---7---7---7--|


			(V)
G|----------------------------------|---------------------------------|
D|----------------------------------|---------------------------------|
A|----------------------------------|---------------------------------|
E|--2---2---2---2---2---2---2---2---|--2---2---2---2---2---R---2---R--|


			(W)
G|----------------------------------|---------------------------------|
D|----------------------------------|---------------------------------|
A|----------------------------------|---------------------------------|
E|--5---5---5---5---5---5---5---5---|--1---1---1---1---1---1---1---1--|


			(X)
G|----------------------------------|---------------------------------|
D|----------------------------------|---------------------------------|
A|--5---5---5---5---5---5---5---5---|---------------------------------|
E|----------------------------------|--3---3---3---3---3---3---3---3--|

REPEAT I, I, I, I, 

REPEAT I, I, J, K

REPEAT I, I, J, K

REPEAT L, M

			(Y)
G|----------------------------------|---------------------------------|
D|----------------------------------|---------------------------------|
A|----------------------------------|---------------------------------|
E|--2---2---2---2---2---R---2---R---|--5---5---5---5---5---5---5---5--|


			(Z)
G|----------------------------------|---------------------------------|
D|----------------------------------|---------------------------------|
A|----------------------------------|--5---5---5---5---5---5---5---5--|
E|--1---1---1---1---1---1---1---1---|---------------------------------|



			(AA)
G|----------------------------------|---------------------------------|
D|----------------------------------|---------------------------------|
A|----------------------------------|---------------------------------|
E|--3---3---3---3---3---3---3---3---|--5---5---5---5---5---5---5---5--|

REPEAT Z, AA

			(AB)
G|----------------------------------|---------------------------------|
D|----------------------------------|---------------------------------|
A|--5---5---5---5-------------------|---------------------------------|
E|------------------3---R---3---R---|--5---5---5---5---5---5---5---5--|

REPEAT AB, AB, AB, AB, AB, AB 

			(AC)
G|----------------------------------|---------------------------------|
D|----------------------------------|---------------------------------|
A|--5---5---5---5-------------------|---------------------------------|
E|------------------3---R---3---R---|--5---HOLD-----------------------|



BACK TO MENU