Two Sunspots


 TWO SUNSPOTS
 ARTIST: THE STRANGLERS
 ALBUM: THE GOSPEL ACCORDING TO THE MENINBLACK
 BASSIST: JEAN JACQUES BURNEL
 TAB BY [email protected]

 
                                   (A)
G|----------------------------------|----------------------------------|
D|----------------------------------|----------------------------------|
A|----------------------------------|----------------------------------|
E|----------------------------------|-----------------------------12\--|

                                   (B)
G|----------------------------------|----------------------------------|
D|----------------------------------|----------------------------------|
A|----------------------------------|----------------------------------|
E|----0--0--0--0----5--5--5--5------|----0--0--0----5---5--5--5--------|


                                   (C)
G|----------------------------------|----------------------------------|
D|----------------------------------|----------------------------------|
A|----------------------------------|----------------------------------|
E|----0--0--0--0----5--5--5--5------|----0--0--0----5---5--5--5--------|


                                   (D)
G|----------------------------------|----------------------------------|
D|----------------------------------|----------------------------------|
A|----------------------------------|----------------------------------|
E|----0--0--0--0----5--5--5--5------|----0--0--0----5---5--5--5--------|


                                   (E)
G|----------------------------------|----------------------------------|
D|----------------------------------|----------------------------------|
A|----------------------------------|----------------------------------|
E|----0--0--0--0----5--5--5--5------|----0--0--0----5---5--5--5--------|


                                   (F)
G|----------------------------------|----------------------------------|
D|----------------------------------|----------------------------------|
A|------------------3--3--3--3------|---------------3---3--3--3--------|
E|----3--3--3--3--------------------|----3--3--3-----------------------|


                                   (G)
G|----------------------------------|----------------------------------|
D|----------------------------------|----------------------------------|
A|------------------3--3--3--3------|---------------3---3--3--3--------|
E|----3--3--3--3--------------------|----3--3--3-----------------------|


                                   (H)
G|----------------------------------|----------------------------------|
D|----------------------------------|----------------------------------|
A|----------------5--5--5--5--------|------4---5---7---7--7---5--------|
E|--7--7--7--7----------------------|--5-------------------------------|


                                   (I)
G|----------------------------------|----------------------------------|
D|----------------------------------|----------------------------------|
A|----------------5--5--5--5--------|------4---5---7---7--7---5--------|
E|--7--7--7--7----------------------|--5-------------------------------|


                                   (J)
G|----------------------------------|----------------------------------|
D|----------------------------------|----------------------------------|
A|----------------5--5--5--5--------|------4---5---7---7--7---5--------|
E|--7--7--7--7----------------------|--5-------------------------------|


                                   (K)
G|----------------------------------|----------------------------------|
D|----------------------------------|----------------------------------|
A|----------------5--5--5--5--------|------4---5---7---7--7---5--------|
E|--7--7--7--7----------------------|--5-------------------------------|


                                   (L)
G|----------------------------------|----------------------------------|
D|----------------------------------|----------------------------------|
A|----------------------------------|----------------------------------|
E|----0--0--0--0----5--5--5--5------|----0--0--0----5---5--5--5--------|


                                   (M)
G|----------------------------------|----------------------------------|
D|----------------------------------|----------------------------------|
A|----------------------------------|----------------------------------|
E|----0--0--0--0----5--5--5--5------|----0--0--0----5---5--5--5--------|
			

                                   (N)
G|----------------------------------|----------------------------------|
D|----------------------------------|----------------------------------|
A|----------------------------------|-------2---3---5---5--5--5--------|
E|----0--0--0--0----5--5--5--5------|--3-------------------------------|


                                   (O)
G|----------------------------------|----------------------------------|
D|----------------------------------|----------------------------------|
A|----------------------------------|-------2---3---5---5--5--5--------|
E|----0--0--0--0----5--5--5--5------|--3-------------------------------|


                                   (P)
G|----------------------------------|----------------------------------|
D|----------------------------------|----------------------------------|
A|----------------------------------|-------2---3---5---5--5--5--------|
E|----0--0--0--0----5--5--5--5------|--3-------------------------------|


                                   (Q)
G|----------------------------------|----------------------------------|
D|----------------------------------|----------------------------------|
A|----------------------------------|-------2---3---5---5--5--5--------|
E|----0--0--0--0----5--5--5--5------|--3-------------------------------|


                                   (R)
G|----------------------------------|----------------------------------|
D|----------------------------------|----------------------------------|
A|------------------3--3--3--3------|---------------3---3--3--3--------|
E|----3--3--3--3--------------------|----3--3--3-----------------------|


                                   (S)
G|----------------------------------|----------------------------------|
D|----------------------------------|----------------------------------|
A|------------------3--3--3--3------|---------------3---3--3--3--------|
E|----3--3--3--3--------------------|----3--3--3-----------------------|


                                   (T)
G|----------------------------------|----------------------------------|
D|----------------------------------|----------------------------------|
A|----------------5--5--5--5--------|------4---5---7---7--7---5--------|
E|--7--7--7--7----------------------|--5-------------------------------|


                                   (U)
G|----------------------------------|----------------------------------|
D|----------------------------------|----------------------------------|
A|----------------5--5--5--5--------|------4---5---7---7--7---5--------|
E|--7--7--7--7----------------------|--5-------------------------------|


                                   (V)
G|----------------------------------|----------------------------------|
D|----------------------------------|----------------------------------|
A|----------------5--5--5--5--------|------4---5---7---7--7---5--------|
E|--7--7--7--7----------------------|--5-------------------------------|


                                   (W)
G|----------------------------------|----------------------------------|
D|----------------------------------|----------------------------------|
A|----------------5--5--5--5--------|------4---5---7---7--7---5--------|
E|--7--7--7--7----------------------|--5-------------------------------|


                                   (X)
G|----------------------------------|----------------------------------|
D|----------------------------------|---------7--7----------7--7-------|
A|---------5--5---------5--5--------|--5--5----------5--5--------------|
E|--3--3----------3--3--------------|----------------------------------|


                                   (Y)
G|----------------------------------|----------------------------------|
D|---------5--5----------5--5-------|---------5--5----------5--5-------|
A|--3--3----------3--3--------------|--3--3----------3--3--------------|
E|----------------------------------|----------------------------------|


                                   (Z)
G|----------------------------------|----------------------------------|
D|----------------------------------|---------7--7----------7--7-------|
A|---------5--5---------5--5--------|--5--5----------5--5--------------|
E|--3--3----------3--3--------------|----------------------------------|


                                   (AA)
G|----------------------------------|----------------------------------|
D|----------------------------------|----------------------------------|
A|---------7--7----------7--7-------|---------7--7----------7--7-------|
E|--5--5----------5--5--------------|--5--5----------5--5--------------|


                                   (AB)
G|----------------------------------|----------------------------------|
D|----------------------------------|----------------------------------|
A|----------------------------------|----------------------------------|
E|----0--0--0--0----5--5--5--5------|----0--0--0----5---5--5--5--------|


                                   (AC)
G|----------------------------------|----------------------------------|
D|----------------------------------|----------------------------------|
A|----------------------------------|----------------------------------|
E|----0--0--0--0----5--5--5--5------|----0--0--0----5---5--5--5--------|


                                   (AD)
G|----------------------------------|----------------------------------|
D|----------------------------------|----------------------------------|
A|----------------------------------|----------------------------------|
E|----0--0--0--0----5--5--5--5------|----0--0--0----5---5--5--5--------|


                                   (AE)
G|----------------------------------|----------------------------------|
D|----------------------------------|----------------------------------|
A|----------------------------------|----------------------------------|
E|----0--0--0--0----5--5--5--5------|----0--0--0----5---5--5--5--------|


                                   (AF)
G|----------------------------------|----------------------------------|
D|----------------------------------|----------------------------------|
A|------------------3--3--3--3------|---------------3---3--3--3--------|
E|----3--3--3--3--------------------|----3--3--3-----------------------|


                                   (AG)
G|----------------------------------|----------------------------------|
D|----------------------------------|----------------------------------|
A|------------------3--3--3--3------|---------------3---3--3--3--------|
E|----3--3--3--3--------------------|----3--3--3-----------------------|


                                   (AH)
G|----------------------------------|----------------------------------|
D|----------------------------------|----------------------------------|
A|----------------5--5--5--5--------|------4---5---7---7--7---5--------|
E|--7--7--7--7----------------------|--5-------------------------------|

                                   (AI)
G|----------------------------------|----------------------------------|
D|----------------------------------|----------------------------------|
A|----------------5--5--5--5--------|------4---5---7---7--7---5--------|
E|--7--7--7--7----------------------|--5-------------------------------|


                                   (AJ)
G|----------------------------------|----------------------------------|
D|----------------------------------|----------------------------------|
A|----------------5--5--5--5--------|------4---5---7---7--7---5--------|
E|--7--7--7--7----------------------|--5-------------------------------|


                                   (AK)
G|----------------------------------|----------------------------------|
D|----------------------------------|----------------------------------|
A|----------------5--5--5--5--------|------4---5---7---7--7---5--------|
E|--7--7--7--7----------------------|--5-------------------------------|
			

                                   (AL)
G|----------------------------------|----------------------------------|
D|----------------------------------|----------------------------------|
A|----------------------------------|-------2---3---5---5--5--5--------|
E|----0--0--0--0----5--5--5--5------|--3-------------------------------|


                                   (AM)
G|----------------------------------|----------------------------------|
D|----------------------------------|----------------------------------|
A|----------------------------------|-------2---3---5---5--5--5--------|
E|----0--0--0--0----5--5--5--5------|--3-------------------------------|


                                   (AN)
G|----------------------------------|----------------------------------|
D|----------------------------------|----------------------------------|
A|----------------------------------|-------2---3---5---5--5--5--------|
E|----0--0--0--0----5--5--5--5------|--3-------------------------------|


                                   (AO)
G|----------------------------------|----------------------------------|
D|----------------------------------|----------------------------------|
A|----------------------------------|-------2---3---5---5--5--5--------|
E|----0--0--0--0----5--5--5--5------|--3-------------------------------|


                                   (AP)
G|----------------------------------|----------------------------------|
D|----------------------------------|----------------------------------|
A|----------------------------------|-------2---3---5---5--5--5--------|
E|----0--0--0--0----5--5--5--5------|--3-------------------------------|


                                   (AQ)
G|----------------------------------|----------------------------------|
D|----------------------------------|----------------------------------|
A|----------------------------------|-------2---3---5---5--5--5--------|
E|----0--0--0--0----5--5--5--5------|--3-------------------------------|


                                   (AR)
G|----------------------------------|----------------------------------|
D|----------------------------------|--7---5---------------------------|
A|----------7--7----------7--7------|----------7---5----5--5--5--------|
E|----0--0----------0--0------------|----------------------------------|


                                   (AS)
G|----------------------------------|----------------------------------|
D|----------------------------------|--7---5---------------------------|
A|----------7--7----------7--7------|----------7-----------------------|
E|----0--0----------0--0------------|--------------7----7--7--7--------|


 Repeat AR & AS Until The Song Fades Out



BACK TO MENU