Outside Tokyo


 SONG: OUTSIDE TOKYO 
 ARTISIT: THE STRANGLERS 
 ALBUM: BLACK AND WHITE
 BASSIST : JEAN JACQUES BURNEL
 TAB BY [email protected]

 
                                   (A)
G|---------------4-6-7-9-8-6-4------|---------------4-6-7-9-8-6-4------|
D|---------4-6-7---------------6-4--|---------4-6-7---------------6-4--|
A|---4-6-7--------------------------|---4-6-7--------------------------|
E|----------------------------------|----------------------------------|

			
                                   (B)
G|---------------4-6-7-9-8-6-4------|---------------4-6-7-9-8-6-4------|
D|---------4-6-7---------------6-4--|---------4-6-7---------------6-4--|
A|---4-6-7--------------------------|---4-6-7--------------------------|
E|----------------------------------|----------------------------------|


                                   (C)
G|----------------------------------|----------------------------------|
D|-----------2-4-5-7-6--4-6-7-------|--4-6-7-6-4-----------------------|
A|-----2-4-5------------------4-6-7-|------------7-6-4-2---------------|
E|----------------------------------|---------------------4-2----------|


                                   (D)
G|---------------4-6-7-9-8-6-4------|---------------4-6-7-9-8-6-4------|
D|---------4-6-7---------------6-4--|---------4-6-7---------------6-4--|
A|---4-6-7--------------------------|---4-6-7--------------------------|
E|----------------------------------|----------------------------------|


                                   (E)
G|---------------4-6-7-9-8-6-4------|
D|---------4-6-7---------------6-4--|
A|---4-6-7--------------------------|
E|----------------------------------|


                                   (F)
G|----------------------------------|----------------------------------|
D|---------2-4-5-7-6--4-6-7---------|--4-6-7-6-4-----------------------|
A|---2-4-5------------------4-6-7---|------------7-6-4-2---------------|
E|----------------------------------|--------------------4-2-----------|


                                   (G)
G|---------------4-6-7-9-8-6-4------|---------------4-6-7-9-8-6-4------|
D|---------4-6-7---------------6-4--|---------4-6-7---------------6-4--|
A|---4-6-7--------------------------|---4-6-7--------------------------|
E|----------------------------------|----------------------------------|


                                   (H)
G|----------------------------------|----------------------------------|
D|---------2-4-5-7-6--4-6-7---------|--4-6-7-6-4-----------------------|
A|---2-4-5------------------4-6-7---|------------7-6-4-2---------------|
E|----------------------------------|--------------------4-2-----------|


                                   (I)
G|---------------4-6-7-9-8-6-4------|
D|---------4-6-7---------------6-4--|
A|---4-6-7--------------------------|
E|----------------------------------|


                                   (J)
G|---------------------------------------------------------------------|
D|---------2-4-5-7-6--4-6-7-----------4-6-7-6-4--------------4-5-6-7---|
A|---2-4-5------------------4-6-7---------------7-6-5--4-6-7-----------|
E|---------------------------------------------------------------------|


                                    (K)
G|---------------------------------------------------------------------|
D|--6-4--------------4-5-6-7-6-4---------------------------------------|
A|------7-6-5--4-6-7--------------7-6-5-4------------------------------|
E|---------------------------------------------------------------------|




BACK TO MENU