Waltzinblack


 WALTZINBLACK

 ARTIST: THE STRANGLERS
 ALBUM: THE GOSPEL ACCORDING TO THE MENINBLACK
 BASSIST: JEAN JACQUES BURNEL
 TAB BY [email protected]

 
                                   (A)
G|----------------------------------|----------------------------------|
D|--7-------------7-------------7---|--3-------------3-------------3---|
A|---------7-------------7----------|---------3-------------3----------|
E|----------------------------------|----------------------------------|


                                   (B)
G|----------------------------------|----------------------------------|
D|--8-------------8-------------8---|--7-------------------------------|
A|---------8-------------8----------|---------7-------------7----------|
E|----------------------------------|----------------5-----------------|


                                   (C)
G|----------------------------------|----------------------------------|
D|--7-------------7-------------7---|--3-------------3-------------3---|
A|---------7-------------7----------|---------3-------------3----------|
E|----------------------------------|----------------------------------|


                                   (D)
G|----------------------------------|----------------------------------|
D|--8-------------8-------------8---|--7-------------------------------|
A|---------8-------------8----------|---------7-------------7----------|
E|----------------------------------|----------------5-----------------|


                                   (E)
G|----------------------------------|----------------------------------|
D|--7-------------7-------------7---|--3-------------3-------------3---|
A|---------7-------------7----------|---------3-------------3----------|
E|----------------------------------|----------------------------------|


                                   (F)
G|----------------------------------|----------------------------------|
D|--8-------------8-------------8---|--7-------------------------------|
A|---------8-------------8----------|---------7-------------7----------|
E|----------------------------------|----------------5-----------------|


                                   (G)
G|----------------------------------|----------------------------------|
D|--7-------------7-------------7---|--3-------------3-------------3---|
A|---------7-------------7----------|---------3-------------3----------|
E|----------------------------------|----------------------------------|


                                   (H)
G|----------------------------------|----------------------------------|
D|--8-------------8-------------8---|--7-------------------------------|
A|---------8-------------8----------|---------7-------------7----------|
E|----------------------------------|----------------5-----------------|


                                   (I)
G|----------------------------------|----------------------------------|
D|----------------------------------|----------------------------------|
A|--3-------------3-------------3---|--1-------------1-------------1---|
E|---------3-------------3----------|---------1-------------1----------|


                                   (J)
G|----------------------------------|----------------------------------|
D|----------------------------------|----------------------------------|
A|--5-------------5-------------5---|--7-------------7-------------7---|
E|---------5-------------5----------|---------7-------------7----------|


                                   (K)
G|----------------------------------|----------------------------------|
D|----------------------------------|----------------------------------|
A|--3-------------3-------------3---|--1-------------1-------------1---|
E|---------3-------------3----------|---------1-------------1----------|


                                   (L)
G|----------------------------------|----------------------------------|
D|----------------------------------|--6-------------------------------|
A|--5-------------5-------------5---|---------6-------------6----------|
E|---------5-------------5----------|----------------4-----------------|


                                   (M)
G|----------------------------------|----------------------------------|
D|--7-------------7-------------7---|--3-------------3-------------3---|
A|---------7-------------7----------|---------3-------------3----------|
E|----------------------------------|----------------------------------|


                                   (N)
G|----------------------------------|----------------------------------|
D|--8-------------8-------------8---|--7-------------------------------|
A|---------8-------------8----------|---------7-------------7----------|
E|----------------------------------|----------------5-----------------|


                                   (O)
G|----------------------------------|----------------------------------|
D|--7-------------7-------------7---|--3-------------3-------------3---|
A|---------7-------------7----------|---------3-------------3----------|
E|----------------------------------|----------------------------------|


                                   (P)
G|----------------------------------|----------------------------------|
D|--8-------------8-------------8---|--7-------------------------------|
A|---------8-------------8----------|---------7-------------7----------|
E|----------------------------------|----------------5-----------------|


                                   (Q)
G|----------------------------------|----------------------------------|
D|--7-------------7-------------7---|--3-------------3-------------3---|
A|---------7-------------7----------|---------3-------------3----------|
E|----------------------------------|----------------------------------|


                                   (R)
G|----------------------------------|----------------------------------|
D|--8-------------8-------------8---|--7-------------------------------|
A|---------8-------------8----------|---------7-------------7----------|
E|----------------------------------|----------------5-----------------|


                                   (S)
G|----------------------------------|----------------------------------|
D|----------------------------------|----------------------------------|
A|--3-------------3-------------3---|--1-------------1-------------1---|
E|---------3-------------3----------|---------1-------------1----------|


                                   (T)
G|----------------------------------|----------------------------------|
D|----------------------------------|----------------------------------|
A|--5-------------5-------------5---|--7-------------7-------------7---|
E|---------5-------------5----------|---------7-------------7----------|


                                   (U)
G|----------------------------------|----------------------------------|
D|----------------------------------|----------------------------------|
A|--3-------------3-------------3---|--1-------------1-------------1---|
E|---------3-------------3----------|---------1-------------1----------|


                                   (V)
G|----------------------------------|----------------------------------|
D|----------------------------------|--6-------------------------------|
A|--5-------------5-------------5---|---------6-------------6------6---|
E|---------5-------------5----------|----------------4-----------------|


                                   (W)
G|----------------------------------|----------------------------------|
D|--7-------------7-------------7---|--3-------------3-------------3---|
A|---------7-------------7----------|---------3-------------3----------|
E|----------------------------------|----------------------------------|


                                   (X)
G|----------------------------------|----------------------------------|
D|--8-------------8-------------8---|--7-------------------------------|
A|---------8-------------8----------|---------7-------------7----------|
E|----------------------------------|----------------5-----------------|

 REPEAT W AND X UNTIL THE SONG FADES OUT


BACK TO MENU