White Room


 WHITE ROOM

 ARTIST: HUGH CORNWELL/ROBERT WILLIAMS
 ALBUM: NOSFERATU 
 BASSIST: HUGH CORNWELL
 TAB BY [email protected]

 R=REST 
                                   (A)
G|----------------------------------|----------------------------------|
D|----------------------------------|----------------------------------|
A|----------------------------------|----------------------------------|
E|-8---8---8---8---6---6---6---6----|-5---5---5---5---4---4---4---4----|

                                   (B)
G|----------------------------------|----------------------------------|
D|----------------------------------|----------------------------------|
A|----------------------------------|----------------------------------|
E|-8---8---8---8---6---6---6---6----|-5---5---5---5---4---4---4---4----|


                                   (C)
G|----------------------------------|----------------------------------|
D|----------------------------------|----------------------------------|
A|----------------------------------|----------------------------------|
E|-8---8---8---8---6---6---6---6----|-5---5---5---5---4---4---4---4----|


                                   (D)
G|----------------------------------|----------------------------------|
D|----------------------------------|----------------------------------|
A|----------------------------------|----------------------------------|
E|-8---8---8---8---10--10--10--10---|-11--11--11--11--13--13--13--13---|


                                   (E)
G|----------------------------------|----------------------------------|
D|----------------------------------|----------------------------------|
A|----------------------------------|----------------------------------|
E|-8---8---8---8---6---6---6---6----|-5---5---5---5---4---4---4---4----|


                                   (F)
G|----------------------------------|----------------------------------|
D|----------------------------------|----------------------------------|
A|----------------------------------|----------------------------------|
E|-8---8---8---8---6---6---6---6----|-5---5---5---5---4---4---4---4----|


                                   (G)
G|----------------------------------|----------------------------------|
D|----------------------------------|----------------------------------|
A|----------------------------------|----------------------------------|
E|-8---8---8---8---6---6---6---6----|-5---5---5---5---4---4---4---4----|


                                   (H)
G|----------------------------------|----------------------------------|
D|----------------------------------|----------------------------------|
A|----------------------------------|----------------------------------|
E|-8---8---8---8---10--10--10--10---|-11--11--11--11--13--13--13--13---|


                                   (I)
G|----------------------------------|----------------------------------|
D|----------------------------------|----------------------------------|
A|----------------------------------|----------------------------------|
E|-6---6---6---6---6---6---6---6----|-1---1---1---1---1---1---1---1----|


                                   (J)
G|----------------------------------|----------------------------------|
D|----------------------------------|----------------------------------|
A|----------------------------------|----------------------------------|
E|-4---4---4---4---4---4---4---4----|-3---3---3---3---3---3---3---3----|


                                   (K)
G|----------------------------------|----------------------------------|
D|----------------------------------|----------------------------------|
A|----------------------------------|----------------------------------|
E|-6---6---6---6---6---6---6---6----|-1---1---1---1---1---1---1---1----|


                                   (L)
G|----------------------------------|----------------------------------|
D|----------------------------------|----------------------------------|
A|----------------------------------|----------------------------------|
E|-4---4---4---4---4---4---4---4----|-6---6---6---6---6---6---6---6----|


                                   (M)
G|----------------------------------|----------------------------------|
D|----------------------------------|----------------------------------|
A|----------------------------------|----------------------------------|
E|-8---8---8---8---8---8---8---8----|-8-R------------------------------|
			

                                   (N)
G|----------------------------------|----------------------------------|
D|----------------------------------|----------------------------------|
A|----------------------------------|----------------------------------|
E|-8---8---8---8---6---6---6---6----|-5---5---5---5---4---4---4---4----|


                                   (O)
G|----------------------------------|----------------------------------|
D|----------------------------------|----------------------------------|
A|----------------------------------|----------------------------------|
E|-8---8---8---8---6---6---6---6----|-5---5---5---5---4---4---4---4----|


                                   (P)
G|----------------------------------|----------------------------------|
D|----------------------------------|----------------------------------|
A|----------------------------------|----------------------------------|
E|-8---8---8---8---6---6---6---6----|-5---5---5---5---4---4---4---4----|


                                   (Q)
G|----------------------------------|----------------------------------|
D|----------------------------------|----------------------------------|
A|----------------------------------|----------------------------------|
E|-8---8---8---8---10--10--10--10---|-11--11--11--11--13--13--13--13---|


                                   (R)
G|----------------------------------|----------------------------------|
D|----------------------------------|----------------------------------|
A|----------------------------------|----------------------------------|
E|-8---8---8---8---6---6---6---6----|-5---5---5---5---4---4---4---4----|


                                   (S)
G|----------------------------------|----------------------------------|
D|----------------------------------|----------------------------------|
A|----------------------------------|----------------------------------|
E|-8---8---8---8---6---6---6---6----|-5---5---5---5---4---4---4---4----|


                                   (T)
G|----------------------------------|----------------------------------|
D|----------------------------------|----------------------------------|
A|----------------------------------|----------------------------------|
E|-8---8---8---8---6---6---6---6----|-5---5---5---5---4---4---4---4----|


                                   (U)
G|----------------------------------|----------------------------------|
D|----------------------------------|----------------------------------|
A|----------------------------------|----------------------------------|
E|-8---8---8---8---10--10--10--10---|-11--11--11--11--13--13--13--13---|


                                   (V)
G|----------------------------------|----------------------------------|
D|----------------------------------|----------------------------------|
A|----------------------------------|----------------------------------|
E|-6---6---6---6---6---6---6---6----|-1---1---1---1---1---1---1---1----|


                                   (W)
G|----------------------------------|----------------------------------|
D|----------------------------------|----------------------------------|
A|----------------------------------|----------------------------------|
E|-4---4---4---4---4---4---4---4----|-3---3---3---3---3---3---3---3----|


                                   (X)
G|----------------------------------|----------------------------------|
D|----------------------------------|----------------------------------|
A|----------------------------------|----------------------------------|
E|-6---6---6---6---6---6---6---6----|-1---1---1---1---1---1---1---1----|


                                   (Y)
G|----------------------------------|----------------------------------|
D|----------------------------------|----------------------------------|
A|----------------------------------|----------------------------------|
E|-4---4---4---4---4---4---4---4----|-6---6---6---6---6---6---6---6----|


                                   (Z)
G|----------------------------------|----------------------------------|
D|----------------------------------|----------------------------------|
A|----------------------------------|----------------------------------|
E|-8---8---8---8---8---8---8---8----|---6-----------------------4------|


                                   (AA)
G|----------------------------------|----------------------------------|
D|----------------------------------|----------------------------------|
A|----------------------------6-----|----------------------------------|
E|--1-------------------------------|--6-------------------------4-----|


                                   (AB)
G|----------------------------------|----------------------------------|
D|----------------------------------|----------------------------------|
A|----------------------------6-----|--5-R-----------------------------|
E|--1-------------------------------|----------------------------------|


                                   (AC)
G|----------------------------------|----------------------------------|
D|----------------------------------|----------------------------------|
A|----------------------------------|----------------------------------|
E|-8---8---8---8---6---6---6---6----|-5---5---5---5---4---4---4---4----|


                                   (AD)
G|----------------------------------|----------------------------------|
D|----------------------------------|----------------------------------|
A|----------------------------------|----------------------------------|
E|-8---8---8---8---6---6---6---6----|-5---5---5---5---4---4---4---4----|


                                   (AE)
G|----------------------------------|----------------------------------|
D|----------------------------------|----------------------------------|
A|----------------------------------|----------------------------------|
E|-8---8---8---8---6---6---6---6----|-5---5---5---5---4---4---4---4----|


                                   (AF)
G|----------------------------------|----------------------------------|
D|----------------------------------|----------------------------------|
A|----------------------------------|----------------------------------|
E|-8---8---8---8---10--10--10--10---|-11--11--11--11--13--13--13--13---|


                                   (AG)
G|----------------------------------|----------------------------------|
D|----------------------------------|----------------------------------|
A|----------------------------------|----------------------------------|
E|-8---8---8---8---6---6---6---6----|-5---5---5---5---4---4---4---4----|


                                   (AH)
G|----------------------------------|----------------------------------|
D|----------------------------------|----------------------------------|
A|----------------------------------|----------------------------------|
E|-8---8---8---8---6---6---6---6----|-5---5---5---5---4---4---4---4----|


                                   (AI)
G|----------------------------------|----------------------------------|
D|----------------------------------|----------------------------------|
A|----------------------------------|----------------------------------|
E|-8---8---8---8---6---6---6---6----|-5---5---5---5---4---4---4---4----|


                                   (AJ)
G|----------------------------------|----------------------------------|
D|----------------------------------|----------------------------------|
A|----------------------------------|----------------------------------|
E|-8---8---8---8---10--10--10--10---|-11--11--11--11--13--13--13--13---|


                                   (AK)
G|----------------------------------|----------------------------------|
D|----------------------------------|----------------------------------|
A|----------------------------------|----------------------------------|
E|-6---6---6---6---6---6---6---6----|-1---1---1---1---1---1---1---1----|


                                   (AL)
G|----------------------------------|----------------------------------|
D|----------------------------------|----------------------------------|
A|----------------------------------|----------------------------------|
E|-4---4---4---4---4---4---4---4----|-3---3---3---3---3---3---3---3----|


                                   (AM)
G|----------------------------------|----------------------------------|
D|----------------------------------|----------------------------------|
A|----------------------------------|----------------------------------|
E|-6---6---6---6---6---6---6---6----|-1---1---1---1---1---1---1---1----|


                                   (AN)
G|----------------------------------|----------------------------------|
D|----------------------------------|----------------------------------|
A|----------------------------------|----------------------------------|
E|-4---4---4---4---4---4---4---4----|-6---6---6---6---6---6---6---6----|


                                   (AO)
G|----------------------------------|----------------------------------|
D|----------------------------------|----------------------------------|
A|----------------------------------|----------------------------------|
E|-8---8---8---8---8---8---8---8----|---6-----------------------4------|


                                   (AP)
G|----------------------------------|----------------------------------|
D|----------------------------------|----------------------------------|
A|----------------------------6-----|----------------------------------|
E|--1-------------------------------|--6-------------------------4-----|


                                   (AQ)
G|----------------------------------|----------------------------------|
D|----------------------------------|----------------------------------|
A|----------------------------6-----|--5-R-----------------------------|
E|--1-------------------------------|----------------------------------|



                                   (AR)
G|----------------------------------|----------------------------------|
D|----------------------------------|----------------------------------|
A|----------------------------------|----------------------------------|
E|-8---8---8---8---6---6---6---6----|-5---5---5---5---4---4---4---4----|


                                   (AS)
G|----------------------------------|----------------------------------|
D|----------------------------------|----------------------------------|
A|----------------------------------|----------------------------------|
E|-8---8---8---8---6---6---6---6----|-5---5---5---5---4---4---4---4----|


                                   (AT)
G|----------------------------------|----------------------------------|
D|----------------------------------|----------------------------------|
A|----------------------------------|----------------------------------|
E|-8---8---8---8---6---6---6---6----|-5---5---5---5---4---4---4---4----|


                                   (AU)
G|----------------------------------|----------------------------------|
D|----------------------------------|----------------------------------|
A|----------------------------------|----------------------------------|
E|-8---8---8---8---10--10--10--10---|-11--11--11--11--13--13--13--13---|

 REPEAT AR TO AU UNTIL THE SONG FADES OUT




BACK TO MENU