Wired


 WIRED

 ARTIST: HUGH CORNWELL/ROBERT WILLIAMS
 ALBUM: NOSFERATU
 BASSIST: ROBERT WILLIAMS
 TAB BY [email protected]

 X=MUTE STRING

 12\=SLIDE DOWN

 R=REST
                                   (A)
G|----------------------------------|----------------------------------|
D|----------------------------------|----------------------------------|
A|--7---7---X---5---7----4---4------|----------------------------------|
E|----------------------------------|--5---5---X---3---5----0---0------|

                                   (B)
G|----------------------------------|----------------------------------|
D|----------------------------------|----------------------------------|
A|--7---7---X---5---7----4---4------|----------------------------------|
E|----------------------------------|--5---5---X---3---5----0---0------|


                                   (C)
G|----------------------------------|----------------------------------|
D|----------------------------------|----------------------------------|
A|--7---7---X---5---7----4---4------|----------------------------------|
E|----------------------------------|--5---5---X---3---5----0---0------|


                                   (D)
G|----------------------------------|----------------------------------|
D|----------------------------------|----------------------------------|
A|--7---7---X---5---7----4---4------|----------------------------------|
E|----------------------------------|--5---5---X---3---5----0---0------|


                                   (E)
G|----------------------------------|----------------------------------|
D|-----3-------5--------------------|-----3-------5--------------------|
A|--------------------------5--4----|--------------------------5--4----|
E|--1-------3-----------------------|--1-------3-----------------------|


                                   (F)
G|----------------------------------|----------------------------------|
D|-----3-------5--------------------|-----3-------5--------------------|
A|--------------------------5--4----|--------------------------5--4----|
E|--1-------3-----------------------|--1-------3-----------------------|


                                   (G)
G|----------------------------------|----------------------------------|
D|-----3-------5--------------------|-----3-------5--------------------|
A|--------------------------5--4----|--------------------------5--4----|
E|--1-------3-----------------------|--1-------3-----------------------|


                                   (H)
G|----------------------------------|----------------------------------|
D|-----3-------5--------------------|-----3-------5--------------------|
A|--------------------------5--4----|----------------------------------|
E|--1-------3-----------------------|--1-------3----------------12\----|


                                   (I)
G|----------------------------------|----------------------------------|
D|----------------------------------|----------------------------------|
A|--7---7---X---5---7----4---4------|----------------------------------|
E|----------------------------------|--5---5---X---3---5----0---0------|


                                   (J)
G|----------------------------------|----------------------------------|
D|----------------------------------|----------------------------------|
A|--7---7---X---5---7----4---4------|----------------------------------|
E|----------------------------------|--5---5---X---3---5----0---0------|


                                   (K)
G|----------------------------------|----------------------------------|
D|-----3-------5--------------------|-----3-------5--------------------|
A|--------------------------5--4----|--------------------------5--4----|
E|--1-------3-----------------------|--1-------3-----------------------|


                                   (L)
G|----------------------------------|----------------------------------|
D|-----3-------5--------------------|-----3-------5--------------------|
A|--------------------------5--4----|--------------------------5--4----|
E|--1-------3-----------------------|--1-------3-----------------------|


                                   (M)
G|----------------------------------|----------------------------------|
D|-----3-------5--------------------|-----3-------5--------------------|
A|--------------------------5--4----|--------------------------5--4----|
E|--1-------3-----------------------|--1-------3-----------------------|


                                   (N)
G|----------------------------------|----------------------------------|
D|-----3-------5--------------------|-----3-------5--------------------|
A|--------------------------5--4----|----------------------------------|
E|--1-------3-----------------------|--1-------3----------------12\----|


                                   (O)
G|----------------------------------|----------------------------------|
D|----------------------------------|----------------------------------|
A|----------------------------------|----------------------------------|
E|--3--3---5--5---1--1---3--0-R-----|--3--3---5--5---1--1---3--0-R-----|


                                   (P)
G|----------------------------------|----------------------------------|
D|----------------------------------|----------------------------------|
A|----------------------------------|--------------------------7-R-----|
E|--3--3---5--5---1--1---3--0-R-----|--3--3---5--5---1--1---3----------|


                                   (Q)
G|----------------------------------|----------------------------------|
D|-----3-------5--------------------|-----3-------5--------------------|
A|--------------------------5--4----|--------------------------5--4----|
E|--1-------3-----------------------|--1-------3-----------------------|


                                   (R)
G|----------------------------------|----------------------------------|
D|-----3-------5--------------------|-----3-------5--------------------|
A|--------------------------5--4----|--------------------------5--4----|
E|--1-------3-----------------------|--1-------3-----------------------|


                                   (S)
G|----------------------------------|----------------------------------|
D|-----3-------5--------------------|-----3-------5--------------------|
A|--------------------------5--4----|--------------------------5--4----|
E|--1-------3-----------------------|--1-------3-----------------------|


                                   (T)
G|----------------------------------|----------------------------------|
D|-----3-------5--------------------|-----3-------5--------------------|
A|--------------------------5--4----|--------------------------5--4----|
E|--1-------3-----------------------|--1-------3-----------------------|


                                   (U)
G|----------------------------------|----------------------------------|
D|-----3-------5--------------------|-----3-------5--------------------|
A|--------------------------5--4----|--------------------------5--4----|
E|--1-------3-----------------------|--1-------3-----------------------|


                                   (V)
G|----------------------------------|----------------------------------|
D|-----3-------5--------------------|-----3-------5--------------------|
A|--------------------------5--4----|--------------------------5--4----|
E|--1-------3-----------------------|--1-------3-----------------------|


                                   (W)
G|----------------------------------|----------------------------------|
D|-----3-------5--------------------|-----3-------5--------------------|
A|--------------------------5--4----|--------------------------5--4----|
E|--1-------3-----------------------|--1-------3-----------------------|


                                   (X)
G|----------------------------------|----------------------------------|
D|-----3-------5--------------------|-----3-------5--------------------|
A|--------------------------5--4----|--------------------------5--4----|
E|--1-------3-----------------------|--1-------3-----------------------|


                                   (Y)
G|----------------------------------|----------------------------------|
D|-----3-------5--------------------|-----3-------5--------------------|
A|--------------------------5--4----|----------------------------------|
E|--1-------3-----------------------|--1-------3-----------------12\---|


                                   (Z)
G|----------------------------------|----------------------------------|
D|-----3-------5--------------------|-----3-------5--------------------|
A|----------------------------------|----------------------------------|
E|--1-------3-----------------------|--1-------3-----------------------|


                                   (AA)
G|----------------------------------|----------------------------------|
D|-----3-------5--------------------|-----3-------5--------------------|
A|----------------------------------|----------------------------------|
E|--1-------3-----------------------|--1-------3-----------------------|


                                   (AB)
G|----------------------------------|----------------------------------|
D|-----3-------5--------------------|-----3-------5--------------------|
A|----------------------------------|----------------------------------|
E|--1-------3-----------------------|--1-------3-----------------------|


                                   (AC)
G|----------------------------------|----------------------------------|
D|-----3-------5--------------------|-----3-------5--------------------|
A|----------------------------------|----------------------------------|
E|--1-------3-----------------------|--1-------3-----------------------|


                                   (AD)
G|----------------------------------|----------------------------------|
D|-----3-------5--------------------|-----3-------5--------------------|
A|----------------------------------|----------------------------------|
E|--1-------3-----------------------|--1-------3-----------------------|


                                   (AE)
G|----------------------------------|----------------------------------|
D|-----3-------5--------------------|-----3-------5--------------------|
A|----------------------------------|----------------------------------|
E|--1-------3-----------------------|--1-------3-----------------------|


                                   (AF)
G|----------------------------------|----------------------------------|
D|-----3-------5--------------------|-----3-------5-------6---6---6----|
A|----------------------------------|-----------------------4---4---4--|
E|--1-------3-----------------------|--1-------3-----------------------|


                                   (AG)
G|----------------------------------|----------------------------------|
D|-----3-------5--------------------|-----3-------5--------------------|
A|----------------------------------|----------------------------------|
E|--1-------3-----------------------|--1-------3-----------------------|


                                   (AH)
G|----------------------------------|----------------------------------|
D|-----3-------5--------------------|-----3-------5--------------------|
A|----------------------------------|----------------------------------|
E|--1-------3-----------------------|--1-------3-----------------------|


                                   (AI)
G|----------------------------------|----------------------------------|
D|-----3-------5--------------------|----------------------------------|
A|----------------------------------|----------------------------------|
E|--1-------3-----------------------|----------------------------------|




BACK TO MENU