Wrong Way Round


 WRONG WAY ROUND

 ARTIST: HUGH CORNWELL/ROBERT WILLIAMS
 ALBUM: NOSFERATU
 BASSIST: HUGH CORNWELL
 TAB BY [email protected]

 
                                   (A)
G|----------------------------------|----------------------------------|
D|----------------------------------|----------------------------------|
A|----------------------------------|----------------------------------|
E|----------------------------------|---------------------------2---3--|


                                   (B)
G|----------------------------------|----------------------------------|
D|----------------------------------|----------------------------------|
A|-----------------0----2-----------|----------------------------------|
E|--0----2----4--------------0------|--0---4---0---4---0---4---0---4---|


                                   (C)
G|----------------------------------|----------------------------------|
D|----------------------------------|----------------------------------|
A|-----------------0----2-----------|----------------------------------|
E|--0----2----4--------------0------|--0---4---0---4---0---4---0---4---|


                                   (D)
G|----------------------------------|----------------------------------|
D|----------------------------------|----------------------------------|
A|-----------------0----2-----------|----------------------------------|
E|--0----2----4--------------0------|--0---4---0---4---0---4---0---4---|


                                   (E)
G|----------------------------------|----------------------------------|
D|----------------------------------|----------------------------------|
A|-----------------0----2-----------|----------------------------------|
E|--0----2----4--------------0------|--0---4---0---4---0---4---0---4---|


                                   (F)
G|----------------------------------|----------------------------------|
D|----------------------------------|----------------------------------|
A|--5--4----------------------------|--5--4----------------------------|
E|-------5--4--5--2---2---2---2---2-|-------5--4--5--2---2---2---2---2-|


                                   (G)
G|----------------------------------|----------------------------------|
D|----------------------------------|----------------------------------|
A|-----------------0----2-----------|----------------------------------|
E|--0----2----4--------------0------|--0---4---0---4---0---4---0---4---|


                                   (H)
G|----------------------------------|----------------------------------|
D|----------------------------------|----------------------------------|
A|-----------------0----2-----------|----------------------------------|
E|--0----2----4--------------0------|--0---4---0---4---0---4---0---4---|


                                   (I)
G|----------------------------------|----------------------------------|
D|----------------------------------|----------------------------------|
A|-----------------0----2-----------|----------------------------------|
E|--0----2----4--------------0------|--0---4---0---4---0---4---0---4---|


                                   (J)
G|----------------------------------|----------------------------------|
D|----------------------------------|----------------------------------|
A|-----------------0----2-----------|----------------------------------|
E|--0----2----4--------------0------|--0---4---0---4---0---4---0---4---|


                                   (K)
G|----------------------------------|----------------------------------|
D|----------------------------------|----------------------------------|
A|--5--4----------------------------|--5--4----------------------------|
E|-------5--4--5--2---2---2---2---2-|-------5--4--5--2---2---2---2---2-|


                                   (L)
G|----------------------------------|----------------------------------|
D|----------------------------------|----------------------------------|
A|-----------------0----2-----------|----------------------------------|
E|--0----2----4--------------0------|--0---4---0---4---0---4---0---4---|


                                   (M)
G|----------------------------------|----------------------------------|
D|----------------------------------|----------------------------------|
A|-----------------0----2-----------|----------------------------------|
E|--0----2----4--------------0------|--0---4---0---4---0---4---0---4---|
			

                                   (N)
G|----------------------------------|----------------------------------|
D|----------------------------------|----------------------------------|
A|----------------------------------|----------------------------------|
E|-------2---3----------2---3-------|-----2---3------------2---3-------|


                                   (O)
G|----------------------------------|----------------------------------|
D|----------------------------------|----------------------------------|
A|----------------------------------|----------------------------------|
E|-------4---5----------4---5-------|-----4---5------------4---5-------|


                                   (P)
G|----------------------------------|----------------------------------|
D|----------------------------------|----------------------------------|
A|-------5---5----------2---2-------|-----3---3------------------------|
E|----------------------------------|----------------------2---2-------|


                                   (Q)
G|----------------------------------|----------------------------------|
D|----------------------------------|----------------------------------|
A|-----------------0----2-----------|----------------------------------|
E|--0----2----4--------------0------|--0---4---0---4---0---4---0---4---|


                                   (R)
G|----------------------------------|----------------------------------|
D|----------------------------------|----------------------------------|
A|-----------------0----2-----------|----------------------------------|
E|--0----2----4--------------0------|--0---4---0---4---0---4---0---4---|


                                   (S)
G|----------------------------------|----------------------------------|
D|----------------------------------|----------------------------------|
A|-----------------0----2-----------|----------------------------------|
E|--0----2----4--------------0------|--0---4---0---4---0---4---0---4---|


                                   (T)
G|----------------------------------|----------------------------------|
D|----------------------------------|----------------------------------|
A|-----------------0----2-----------|----------------------------------|
E|--0----2----4--------------0------|--0---4---0---4---0---4---0---4---|


                                   (U)
G|----------------------------------|----------------------------------|
D|----------------------------------|----------------------------------|
A|--5--4----------------------------|--5--4----------------------------|
E|-------5--4--5--2---2---2---2---2-|-------5--4--5--2---2---2---2---2-|


                                   (V)
G|----------------------------------|----------------------------------|
D|----------------------------------|----------------------------------|
A|-----------------0----2-----------|----------------------------------|
E|--0----2----4--------------0------|--0---4---0---4---0---4---0---4---|


                                   (W)
G|----------------------------------|----------------------------------|
D|----------------------------------|----------------------------------|
A|-----------------0----2-----------|----------------------------------|
E|--0----2----4--------------0------|--0---4---0---4---0---4---0---4---|


                                   (X)
G|----------------------------------|----------------------------------|
D|----------------------------------|----------------------------------|
A|-----------------0----2-----------|----------------------------------|
E|--0----2----4--------------0------|--0---4---0---4---0---4---0---4---|


                                   (Y)
G|----------------------------------|----------------------------------|
D|----------------------------------|----------------------------------|
A|-----------------0----2-----------|----------------------------------|
E|--0----2----4--------------0------|--0---4---0---4---0---4---0---4---|


                                   (Z)
G|----------------------------------|----------------------------------|
D|----------------------------------|----------------------------------|
A|----------------------------------|----------------------------------|
E|-------2---3----------2---3-------|-----2---3------------2---3-------|


                                   (AA)
G|----------------------------------|----------------------------------|
D|----------------------------------|----------------------------------|
A|----------------------------------|----------------------------------|
E|-------4---5----------4---5-------|-----4---5------------4---5-------|


                                   (AB)
G|----------------------------------|----------------------------------|
D|----------------------------------|----------------------------------|
A|-------5---5----------2---2-------|-----3---3------------------------|
E|----------------------------------|----------------------2---2-------|


                                   (AC)
G|----------------------------------|----------------------------------|
D|----------------------------------|----------------------------------|
A|-----------------0----2-----------|----------------------------------|
E|--0----2----4--------------0------|--0---4---0---4---0---4---0---4---|


                                   (AD)
G|----------------------------------|----------------------------------|
D|----------------------------------|----------------------------------|
A|-----------------0----2-----------|----------------------------------|
E|--0----2----4--------------0------|--0---4---0---4---0---4---0---4---|


                                   (AE)
G|----------------------------------|----------------------------------|
D|----------------------------------|----------------------------------|
A|-----------------0----2-----------|----------------------------------|
E|--0----2----4--------------0------|--0---4---0---4---0---4---0---4---|


                                   (AF)
G|----------------------------------|----------------------------------|
D|----------------------------------|----------------------------------|
A|-----------------0----2-----------|----------------------------------|
E|--0----2----4--------------0------|--0---4---0---4---0---4---0---4---|


                                   (AG)
G|----------------------------------|----------------------------------|
D|----------------------------------|----------------------------------|
A|-----------------0----2-----------|----------------------------------|
E|--0----2----4--------------0------|--0---4---0---4---0---4---0---4---|


                                   (AH)
G|----------------------------------|----------------------------------|
D|----------------------------------|----------------------------------|
A|-----------------0----2-----------|----------------------------------|
E|--0----2----4--------------0------|--0---4---0---4---0---4---0---4---|


                                   (AI)
G|----------------------------------|----------------------------------|
D|----------------------------------|----------------------------------|
A|----------------------------------|----------------------------------|
E|-------2---3----------2---3-------|-----2---3------------2---3-------|


                                   (AJ)
G|----------------------------------|----------------------------------|
D|----------------------------------|----------------------------------|
A|----------------------------------|----------------------------------|
E|-------2---3----------2---3-------|-----2---3------------2---3-------|


                                   (AK)
G|----------------------------------|----------------------------------|
D|----------------------------------|----------------------------------|
A|----------------------------------|----------------------------------|
E|-------4---5----------4---5-------|-----2---3------------2---3-------|
			

                                   (AL)
G|----------------------------------|----------------------------------|
D|----------------------------------|----------------------------------|
A|----------------------------------|----------------------------------|
E|-------2---3----------2---3-------|-----4---5------------4---5-------|


                                   (AM)
G|----------------------------------|----------------------------------|
D|----------------------------------|----------------------------------|
A|----------------------------------|----------------------------------|
E|-------2---3----------2---3-------|-----2---3------------2---3-------|


                                   (AN)
G|----------------------------------|
D|----------------------------------|
A|----------------------------------|
E|-------2---3----------2---3-------|


                                   (AO)
G|----5------------------------------|----5----------------------------|
D|-5-----5--4------------------------|-5-----5--4----------------------|
A|-------------5--3-----3--3---------|-------------5--3-----3--3-------|
E|-------------------5---------------|-------------------5-------------|


                                   (AP)
G|----5------------------------------|----5----------------------------|
D|-5-----5--4------------------------|-5-----5--4----------------------|
A|-------------5--3-----3--3---------|-------------5--3-----3--3-------|
E|-------------------5---------------|-------------------5-------------|


                                   (AQ)
G|----------------------------------|----------------------------------|
D|-----1---1-----1------------------|---0---1---0----------------------|
A|-3-----------------1---1----1---3-|----------------3---1-------------|
E|----------------------------------|-------------------------3---3----|


                                   (AR)
G|----------------------------------|----------------------------------|
D|-----1---1-----1------------------|---0---1---0---1----4----3---3----|
A|-3-----------------1---1----1---3-|----------------------------------|
E|----------------------------------|----------------------------------|

 REPEAT AO TO AR


                                   (AS)
G|----5------------------------------|----5----------------------------|
D|-5-----5--4------------------------|-5-----5--4----------------------|
A|-------------5--3-----3--3---------|-------------5--3-----3--3-------|
E|-------------------5---------------|-------------------5-------------|


                                   (AT)
G|----5------------------------------|----5----------------------------|
D|-5-----5--4------------------------|-5-----5--4----------------------|
A|-------------5--3-----3--3---------|-------------5--3-----3--3-------|
E|-------------------5---------------|-------------------5-------------|


                                   (AU)
G|----------------------------------|----------------------------------|
D|----------------------------------|----------------------------------|
A|-3----1---1-------1---------------|----------------------------------|
E|-----------------------4---4------|-4----3---3-------3----1---1------|


                                   (AV)
G|----------------------------------|----------------------------------|
D|------1---1-------1---------------|----------------------------------|
A|-3---------------------4---4------|-4----3---3-------3----1---1------|
E|----------------------------------|----------------------------------|


                                   (AW)
G|----------------------------------|----------------------------------|
D|----------------------------------|-----------------------1---1------|
A|-1--------------------------------|------------------3---------------|
E|------4---4-------4----3---3------|-3----1---1-----------------------|


                                   (AX)
G|----------------------------------|----------------------------------|
D|-1--------------------------------|----------------------------------|
A|------4---4-------4----3---3----3-|----------------------------------|
E|----------------------------------|----------------------------------|
                                    AT THIS POINT THE SONG GOES INTO PUPPETS




BACK TO MENU